Make your own free website on Tripod.com
Butterfly
Butterfly  From: 9250128@bn.fnt.hvu.nl

Intro: (4) means heavy mute (listen to the cd)
e|--------------------------------------------------|
B|--------------------------------------------------|
G|-------(6)---------(6)---------(4)---------(4)----|
D|----(4)---(4)---(4)---(4)---(3)---(3)---(3)---(3)-|
A|-(5)---------(5)---------(4)---------(4)----------|
E|--------------------------------------------------|

e|--------------------------------------------|
B|--------------------------------------------|
G|-------(6)---------(6)-------------0--------|
D|----(4)---(4)---(4)---(4)--------2---2---2--|
A|-(5)---------(5)-------------2---------2----|
E|---------------------------0----------------|

e|---------------------------------------------|->
B|---------------------------------------------|->
G|---5--5--5-5-5-5/9---9---9--9-/10--10-10--9--|->
D|---6--6--6-6-6-6/10--10--10-10/11--11-11--10-|->
A|---6--6--6-6-6-6/10--10--10-10/11--11-11--10-|->
E|-\-4--4--4-4-4-4/8---8---8--8-/9---9--9---8--|->

e|------------------------------------------------|->
B|------------------------------------------------|->
G|-5--5--5-5-5-5/9---9---9--9-\7--7-7-7\9---9--9--|->
D|-6--6--6-6-6-6/10--10--10-10\8--8-8-8\10--10-10-|->
A|-6--6--6-6-6-6/10--10--10-10\8--8-8-8\10--10-10-|->
E|-4--4--4-4-4-4/8---8---8--8-\6--6-6-6\8---8--8--|->

e|------------------------------------|
B|------------------------------------|
G|-5--5--5-5-5-5/9---9----9--10-9--9--|
D|-6--6--6-6-6-6/10--10---10-11-10-10-|
A|-6--6--6-6-6-6/10--10---10-11-10-10-|
E|-4--4--4-4-4-4/8---8----8--9--8--8--|